Another World

Words and music by Brian May

Chords by Ole Iacob Norman
Corrected by Miguel Sobrevia, 
Solo Tab by Miguel Sobrevia, Chile. 

[Standard Guitar Tuning  EADGBE]

F

F             A#
In Another World
Gm       C      F   Dm
Under Another Sky
Dm        Gm            C
I see a Another story waiting
C       F
To be told

F            A#           Gm
And Another You  -Wakes Up-
Gm       C    F   Dsus4  
With Another Me
D              Gm                C
For that's the way we've come to be 
            F
In Another World

      Dm   A-C-Dm
In a different place
Dm  C       A#  
Way across  time  and  space
Asus4      C#m/5+  Dm  DmE(no5)  F6(no5)  Dm
The door is open wide
Dm         Gm
Drawn to a different light
      A#               Cadd9(no5)
Maybe we'll step inside

          A#     Gm
I Another World
       C       F     Dsus4
We can show we care
 D         Gm
You can be sure 
               A#  
I'm waiting there 
    C       F
In Another World...


[Acoustic guitar solo]
Yeah-yeah-yeah-yeah

[Chords during the solo]
[D#-Cm-F-A#-Gm-Cm-F-A#...
D#-Cm-F-A#-Gm-Cm-Dm-E-A#]


Uhh-yeah

         Dm             A-C-Dm 
When the dice were cast
Dm       C  A#
They laid a crazy path
Asus4     C#m/5+  Dm  DmE(no5)  F6(no5)  Dm
We follow to our graves
                Gm 
But I know in a different World
             A#           Cadd9(no5)
We journey a different way

               A#    Gm
So we live but life
      C         F    Dsus4
Isn't what it seems
D          Gm            A#
We're only living in our dreams
C          F
In Another World

Dsus4 D       Gm
      You can believe 
              C
I'll meet you here
           A#
In Another World

Gm    C      F

Yeah-yeah


Chords Used:
            EADGBE
F         :[133211]
A#        :[x13331]
Gm        :[355333]
C         :[x32010]
D         :[x00232]
Dm        :[xx0231]
Dsus4     :[x00233]
Asus4     :[x0223x]
C#m/5+    :[x42220]
DmE(no5)  :[xx2x31]
F6(no5)   :[xx3231]
Cadd9(no5):[x32x30]

Guitar solo:

01:55

E|--------------------------------10----
B|------------10-11-13-11\10h11-11------
G|-----10-12------------------------12--
D|---10---------------------------------
A|-12-----------------------------------
E|--------------------------------------

                        (trill)                    (trill)
-------------------------------------------------------------------------
----------------10-11-10h11p10h11p10-------------------------------------
12-10--10-12--------------------------12-10--10-------------------10-----
-----13-----13-----------------------------13-----13p12h13p12--13--------
---------------------------------------------------------------------13--
-------------------------------------------------------------------------


---------------------------------------------------------------------------
------------------------------------------------------------------10-10\8--
-----10--------------------------------10--------10-12-13-12-13-12---------
12-13--13-12-13--12h13p12h13--10-12-13---13-12-13--------------------------
---------------------------------------------------------------------------
---------------------------------------------------------------------------

-------------------------------------------------------------------
-------------------------------------------------------------------
-------------------------------------------------------------------
12\10-10\8-10-10/12\10------10-------------------------------------
--------------------------13--13p12h13p12-12-13-12h13p12-10-12-13--
-------------------------------------------------------------------

-----------------------------------------------------------------------------------
--------------11-11p10h11p10h11p10-10----------------------------------------------
-----10--10-12-----------------------12-10-12p10-10--------------------------------
10/12--13------------------------------------------13p12h13p12h13p12---10----------
---------------------------------------------------------------------13--13p12h13--
-----------------------------------------------------------------------------------


-----------------------------------
-----------------------------------
--------10-12----------------------
10-12-13-----12---------10b12r-10--
---------------13--10-13-----------
-----------------------------------

-------------------------------------------------------
------------11-13b15r-13-11p10h11p10-------------------
-------10-12------------------------12p10h12p10h12p10--
8-10b12------------------------------------------------
-------------------------------------------------------
-------------------------------------------------------

------------------------------------------------
------------------------------------------------
------------------------------------------------
13p12h13p12-10----------------------------------
---------------13-13--12-12-10-10-8-8-6-6/8/10--
------------------------------------------------


---------------------------------------------
--------------------------11-13-11h13p11\10--
--------------------10-11--------------------
10-10p9h10-12-13--13-------------------------
---------------------------------------------
---------------------------------------------

                                                                           When the dice...
------------15-13-11--------------------10------------------------------------10--
----10-13-16--------13-11-10-11~---11-13---11-13--10-11--10--------------11-13----
--10---------------------------------------------------12---10-12--8-10-----------
10--------------------------------------------------------------------------------
----------------------------------------------------------------------------------
----------------------------------------------------------------------------------