Cyborg

Words and music by Brian May

Tuning: DADGBE
bpm=3D153

t: tap on,    /: slide
p: pull off   b: bend
h: hammer on  ~: vibrato

 00:06 Lead Guitar (Repeat this riff x6)
|------------------------------------------------|
|------------------------------------------------|
|------------------------------------------------|
|t19p12p11h12t19p12t19p12p11h12t19p12t19p12p11h12|
|------------------------------------------------|
|------------------------------------------------|

 rythm guitar
 00:09(let ring)
E|---------------xx2-------|
B|---------------xx3-------|
G|---------------xx2-------|
D|-xx0-----------xx0-------|
A|-xx0-----------xx0-------|
D|-xx0-----------xx0-------|

 (x2)=20
E|-----------------------------------------------------------------|
B|---------------------------3---3---------------------------3-3-3-|
G|---------------------------3---2---------------------------3-3-3-|
D|-0-3-3-3-3-0---3-3-3-3-0-----------3-3-3-3-0---3-3-3-3-0---------|
A|-0-3-3-3-3-0---3-3-3-3-0-----------3-3-3-3-0---3-3-3-3-0---------|
D|-0-3-3-3-3-0---3-3-3-3-0-----------3-3-3-3-0---3-3-3-3-0---------|

 Chord: B
 00:29 Lead Guitar (x2)
|-------------------------------------------------------------------------*
|-------------------------------------------------------------------------*
|-------------------------------------------------------------------------*
|t16p9p8h9t16p9p8t16\15p9p8h9t13p9p8h9t15p9p8h9t16p9p8h9t18p9p8h9t15p9p8h9*
|-------------------------------------------------------------------------*
|-------------------------------------------------------------------------*

*----------------------------------------------------------------|
*----------------------------------------------------------------|
*----------------------------------------------------------------|
*t16p9p8h9t16p9p8t16\15p9p8h9t13p9p8h9t15p9p8h9t11p9p8h9t11b13~~-|
*----------------------------------------------------------------|
*----------------------------------------------------------------|
=20
 Chord: G#
 00:42 (2x)
|-------------------------------------------------------------------------|
|-------------------------------------------------------------------------|
|-------------------------------------------------------------------------|
|t13p6p5h6t13p6p5t13\12p6p5h6t10p6p5h6t12p6p5h6t13p6p5h6t12p6p5h6t10p6p5h6|
|-------------------------------------------------------------------------|
|-------------------------------------------------------------------------|

 Chord: D5
 00:48 (repeat x4)  (00:54 joins 2 multitracked guitars in harmony)
|---------------------------------------------------------------------------=
---|
|---------------------------------------------------------------------------=
---|
|t14p7p6h7t14p7t14p7p6h7t13p11t13p11p10h11t14p7p6h7t14p7t14p7p6h7h8h9t13p9t1=
3p9|
|---------------------------------------------------------------------------=
---|
|---------------------------------------------------------------------------=
---|
|---------------------------------------------------------------------------=
---|

 01:00
|----------------------------------------------------------------------
|t13p6p5h6t12p6t12p6p5t6/13p6t13p12p11h12t15p13p12h13t17p15t17p15p14h15
|----------------------------------------------------------------------
|----------------------------------------------------------------------
|----------------------------------------------------------------------
|----------------------------------------------------------------------
                                     rythm guitar:
------------------------------------------------------------|
t18p17t18p17p16h17-20b22~~----------------------------------|
-------------------------------------2--(2)----4--4-2--(2)--|
-------------------------------------2--(2)----4--4-2--(2)--|
-------------------------------------0--(0)----2--2-0--(0)--|
------------------------------------------------------------|

 01:03 Chords:

 A                   B B      =20
I play their fantasy and     =20
 A                   B B
I live their pain...
|----------------------------------------------|=20
|16p15h16t17p16p15h16t17p16p14h16t17p16p14-----|
|-----------------------------------------14---|
|-------------------------------------------14-|
|----------------------------------------------|
|----------------------------------------------|
 A                           B B     =20
My heart and soul locked up in a=20
 A                           B B =20
Cold steel frame...
                |--555--|
                |--555--|
                |--222--|
                |--222--|
                |--000--|
                |-------|
 C
A strange creature's crawling and it's  Calling out my name
 D#
I don't want to I don't need to But I must fight again

Let me out,
set me free...
 (fill x2)
E|---------------|
B|-----------8---|
G|-----------8---|
D|---8---7---6---|
A|---8---7---6---|
D|---8---7---6---|

"Calling out for the cyborg, gona rub you out"

 |--Play Riff 1 again at 00:15--|

 fill at 01:47
E|-------------|
B|--888---777--|
G|--555---666--|
D|--555---444--|
A|-------------|
D|-------------|

 01:50 (4x)
 Chord: D
|Gtr1
|-------------------------------------|
|-------------------------------------|
|t14p7p6h7t14p7t14p7p6h7t13p7t13p7p6h7|
|-------------------------------------|
|-------------------------------------|
|-------------------------------------|
|Gtr2
|------------------------------------------------|
|------------------------------------------------|
|t14p11p10h11t14p11t14p11p10h11t13p11t13p11p10h11|
|------------------------------------------------|
|------------------------------------------------|
|------------------------------------------------|

 01:57 (x2)
=20

|Gtr1  Chord: D
|--------------------------------------------------------------------------|
|--------------------------------------------------------------------------|
|t14p7p6h7t16p7t16p7p6h7t13p7t13p7p6h7t14p7p6h7t19p7t19p7p6h7t13p7t13p7p6h7|
|--------------------------------------------------------------------------|
|--------------------------------------------------------------------------|
|--------------------------------------------------------------------------|
|Gtr2
|---------------------------------------------------------------------------=
---------------------
|---------------------------------------------------------------------------=
---------------------
|t14p11p10h11t16p11t16p11p10h11t13p11t13p11p10h11t14p11p10h11t19p11t19p11p10=
h11t13p11t13p11p10h11
|---------------------------------------------------------------------------=
---------------------
|---------------------------------------------------------------------------=
---------------------
|---------------------------------------------------------------------------=
---------------------

 02:02 (2x)
|-------------------------------------------------------------------------*
|-------------------------------------------------------------------------*
|t14p7p6h7t14p7p6t14\13p7p6h7t11p7p6h7t13p7p6h7t14p7p6h7t16p7p6h7t13p7p6h7*
|-------------------------------------------------------------------------*
|-------------------------------------------------------------------------*
|-------------------------------------------------------------------------*

 first ending:
----------------------------------------------------------------|
----------------------------------------------------------------|
t14p7p6h7t14p7p6t14\13p7p6h7t11p7p6h7t13p7p6h7t9p7p6h7t9b11~~---|
----------------------------------------------------------------|
----------------------------------------------------------------|
----------------------------------------------------------------|
 Chord: D
 second ending:
----------------------------------------------------------------|
----------------------------------------------------------------|
t14p7p6h7t14p7p6t14\13p7p6h7t14p7p6h7t16p7p6h7t18p7p6h7-13b14~~-|
----------------------------------------------------------------|
----------------------------------------------------------------|
----------------------------------------------------------------|

 Solo=20
 Chord: B
 02:16 WITH WIDE VIB /\/\
E|--------------------------------------------------------
B|--------------------------------------------------------
G|/4~~-/11-10~~-8-10~~-11-13~~-11-10~~-8-10~~-8-7~~-8-7~~-
D|--------------------------------------------------------
A|--------------------------------------------------------
D|--------------------------------------------------------

 here joins multitracked guitars                           G#
--------------------------------------------------------------|
--------------------------------------------------------------|
/4~~-/11-10~~-8-10~~-11-13~~-11-10~~-8-10~~-8-7~~-8-7~~-4-1---|
--------------------------------------------------------------|
--------------------------------------------------------------|
--------------------------------------------------------------|

 02:28
|---------------------------------------------------------------------------=
--------*
|---------------------------------------------------------------------------=
--------*
|---------------------------------------------------------------------------=
--------*
|t13p6p5h6t13p6p5t13\12p6p5h6t10p6p5h6t12p6p5h6t13p6p5h6t12p6p5h6t10p6p5h6t1=
2p6p5h6-*
|---------------------------------------------------------------------------=
--------*
|---------------------------------------------------------------------------=
--------*

*--------------------------------------------------------------------|
*--------------------------------------------------------------------|
*--------------------------------------------------------------------|
*t13p6p5h6t13p6p5t13\12p6p5h6t10p6p5h6t12p6p5h6t13p6p5h6t12p6p5h6t10-|
*--------------------------------------------------------------------|
*--------------------------------------------------------------------|

little fill at the end... B-----t15p9p8h9t16p9p8h9t15p9p8h9t13p9p8h9-|

 02:35                                                                     =
 inaudible sound
|---------------------------------------------------------------------------=
------------------
|---------------------------------------------------------------------------=
------------------
|t14p7p6h7t15p7t15p9p8h9t16p11t16p11p10h11t17p12p11h12t18p11t18p14p13h14t19p=
15t19p15p10--12b14
|---------------------------------------------------------------------------=
-----------12-----
|---------------------------------------------------------------------------=
------------------
|---------------------------------------------------------------------------=
------------------
|
|                                                                ...=
 --------------------------15b17|
|                                                                ...=
 -------------------------------|
|                                                                ...=
 -------------------------------|
|                                                                ...=
 18p14----14-18p14h18p14--------|
|                                                                ...=
 ------14----------------14-----|
|                                                                ...=
 -------------------------------|

 A B B  A B B

 A                         B  B  A
I'll make it back there baby    just you watch me try
 B B A             B B A=20
(one more try-just one more try)
 (fill x2)
|----------------------------------------------|
|16p15h16t17p16p15h16t17p16p14h16t17p16p14-----|
|-----------------------------------------14---|
|-------------------------------------------14-|
|----------------------------------------------|
|----------------------------------------------|

 A
We'll fly again
     B B  A      =20
into the deep blue sky...=20
                     |--555--|
                     |--555--|
                     |--222--|
                     |--222--|
                     |--000--|
                     |-------|
 C   =20
I feel a hunger baby Cyborg feels no shame
 D#
Lord I have to, Lord I need to Win this wicked game

Come step to me
 (fill x2)
E|---------------|
B|-----------8---|
G|-----------8---|
D|---8---7---6---|
A|---8---7---6---|
D|---8---7---6---|

 03:18
|--Play Riff 1 again at 00:15--|

 After the break at 03:32
E|-------------|
B|--888---777--|
G|--555---666--|
D|--555---444--|
A|-------------|
D|-------------|


 end 03:38  "I'm gonna erase your file"
|-------222---22-----|
|-------333---33-----|
|-------222---22-----|
|-0-----000---00-----|
|-0-----000---00-----|
|-0-----000---00-----|


transcribed by Miguel A. Sobrevia =AE,
msobrevi@latinmail.com
dedicated to Mario Torres
Many thanx to Denes ;-)
CHILE, january, 1999