The Dark

Words and music by Brian May

Transcribed by Miguel S. -Chile-

Little Baby sweetly sleep
Do not stir
We will bring a coat of fur
We will rock you, rock you, rock you
We will rock you, rock you, rock you


00:44
Chord:G5
                                 (X2) 
e|---2b4----|---4b6---|---10--10---|
B|---4b6----|---6b8---|---11--12---|
G|---4b6----|---6b8---|---10--12---|
D|---4b6----|---6b8---|---12--12---|
A|---3b4----|---5b6---|---10--10---|
E|----------|---------|------------|


[Beautiful interlude]

01:50
Chord:G5

e|---2b4----|---4b6---|---10-10---10-10--|
B|---4b6----|---6b8---|---11-11---12-12--|
G|---4b6----|---6b8---|---10-10---12-12--|
D|---4b6----|---6b8---|---12-12---12-12--|
A|---3b4----|---5b6---|---10-10---10-10--|
E|----------|---------|------------------|

fill at 02:00
e|----------------------------|
B|-----------------18b20r18---|
G|--17(pb18)b19r18------------|
D|----------------------------|
A|----------------------------|
E|----------------------------|
    [Note: pb = pre-bend]