Dragon Attack

Words and music by Brian May


rhythm guitars
  *               *               *               *
|-----------------------------------------------------------------|
|-----------------------------------------------------------------|
|-----------------------------------------------------------------|
|-----------3---3---------------------------3---3-----------------|
3-5-3---3-5-------5-3---3-5---x-3-5-3---3-5-------5-3---3-5---5-0-|
|-----5---------------5---------------5---------------5-----------|

|-----------------------------------------------------------------|
|-----------------------------------------------------------------|
|-----------------------------------------------------------------|
|-----------3---3---------------------------3---3-----------------|
|-5-3---3-5-------5-3---3-5-----3-5-3---3-5-------5-3---3-5---x-3-|
|-----5---------------5---------------5---------------5-----------|

|-----------------------------------------------------------------|
|-----------------------------------------------------------------|
|-----------------------------------------------------------------|
|-----------3---3---------------------------3---3-----------------|
|-5-3---3-5-------5-3---3-5---5-0-5-3---3-5-------5-3----3-5----3-|
|-----5---------------5---------------5---------------5-----------|

|-----------------------------------------------------------------|
|-----------------------------------------------------------------|
|-----------------------------------------------------------------|
|-----------3---3---------------------------3---3-----------------|
|-5-3---3-5-------5-3---3-5---x-3-5-3---3-5-------5-3---3-5-------|
|-----5---------------5---------------5---------------5-----------|

...

0:35  *
|------------------------------------|
|------------------------------------|
|------------------------------------|
|---------------3-----5-3------------|
|-5-0-5-3---3-5-----0-----5-3-5\-----|
|---------5--------------------------|


0:50
|-------------------------------------------------------------|
|---1---------------1---------------1-----------1-------------|
|---2---4-----------2---4----------x2---4-------2---4---------|
|---3---5-----------3---5---53-----x3---5-------3---5---53----|
|---3---5-----------3---5-----535-xx3---5-------3---5-----535-|
|-3\1---3------xxxx11---3-----------1---3-----xx1---3---------|


1:00 
|-------------------------------|
|---------------------13--------|
|-12b_14r_v-----12b-----10b__11-|
|-------------------------------|
|-------------------------------|
|-------------------------------|

2:03
|------------------------------------------------------------|
|-13b15v-------------10-13-10--------------------------------|
|-x---------x--x-b14----------13-12-10b----12-10v-----x--x---|
|-x---------x--x------------------------12------------x--x---|
|--------------x---------------------------------------------|
|------------------------------------------------------------|


2:09 rhythm guitars
|---------------------------------|
|---------------------------------|
|---------------------------------|
|-7-7-----5-5---------------------|
|-5-5-----3-3-----5-5-----3-3-----|
|-----------------3-3---1-1-1-----|

rhythm guitar
|---------------------------------|----------------------------|
|---------------------------------|----------------------------|
|---------------------------------|----------------------------|
|-7-7-----5-5---------------------|-7-7-----5------------------|
|-5-5-----3-3-----5-5-----3-3-----|-5-5-----3-------5_______---|
|-----------------3-3-----1-1-----|-----------------3_______---|



2:12 solo guitar                                 
|-------------|---------------------------------------------|
|-------10-13-|-----------________--------------------------|
|-12b14-------13-12-10----10h12p10---10----________---10----|
|-------------|--------12---------12----12-10h12p10---------|
|-------------|------------------------------------12----12-|
|-  play 6X  -|---------------------------------------------|


|-----------------------------------|
|--------------------------------|
|-10-10----x-10____----12---10____--|
|-10-10---10-10____----12---10____--|
|-----------------------------------|
|-----------------------------------|
  *               *               *               *
|-----------------------------------------------------------------|
|-----------------------------------------------------------------|
|-7-7-----7____---------5____-7-----------7____-----5---5____-7---|
|-7-7---x-7____---5-5-7-------7-----7-----7____-------7-5____-7---|
|-5-------------------------------5-------------------------------|
|-----------------------------------------------------------------|
  *               *               *               *
|-----------------------------------------------------------------|
|-----------------------------------------------------------------|
|---7-----7____---------5____-7-----7-----7____-----5---5____-7---|
|---7-----7____-----5-7-------7-----7---X-7____-------7-5____-7---|
|-5-------------------------------5-------------------------------|
|-----------------------------------------------------------------|
  *               *               *               * 
|-------------------------------------------------------|
|-----X-------------------------------------------------|
|---7-----7____---------5____-7-----7-----7-------------|
|---7-----7____-----5-7-5____-7-----7-----7-------------|
|-5-------------------------------5---------------...---|
|-------------------------------------------------------|


solo guitar:
|-----------------------------------------------------------|
|---13b15v___--_____-10-13-10-------------------------------|
|--------------12b14----------13-12-11-10b----10b-----------|
|------------------------------------------12-----12--------|
|-x--------------------------------------------------10h12--|
|-x---------------------------------------------------------|

|------------------------------------------------|
|-------10-13-10-------________------------------|
|-12b14----------13-12-10h12p10----10------------|
|-------------------------------12----12---------|
|----------------------------------------10h12---|
|------------------------------------------------|

|-----------------------------------------------------------------------|
|----------------------------------------------13---____________--------|
|---------------------------------------------------10h13p12p10v--------|
|-10----10---------------------------------------------------------12---|
|----12----12-11-10-8b----------xxx8b-----------------------------------|
|------------------------10-8---xxx----h10------------------------------|

|------------------------------------------------|
|-----------------------13-10--------------------|
|-----------------------------13-12-11b----------|
|---------------------------------------12-10----|
|------8----8---10b12-------------------------12-|
|-x-10---10--------------------------------------|

|----------------------------------------|
|--------------------13-10---------------|
|--------------------------13-12-10------|
|-----------------------------------12-x-|
|-----------8---10-----------------------|
|-8-10---10------------------------------|

3:03 rhythm gtr1
|--------------------------------------------------|
|--------------------------------------------------|
|-5v-----------------------------5v----------------|
|-----7-6-5-3---3--------------------7-6-5-3---3---|
|-------------5-----5---3---x----------------5-----|
|--------------------------------------------------|
|rhythm gtr2: E5 D5 A5 G5

|------------------------------------------------------|
|------------------------------------------------------|
|-5v-----------------------------5v--------------------|
|-----7-6-5-3---5---3-----------------7-6-5-3-5----7---|
|-------------5--------53---5-----------------3----5...|
|------------------------------------------------------|
|rh. gtr2 riff:
|----------------------------------|
|----------------------------------|
|------------------------------3---|
|-7-7-----5-5------------------3---|
|-5-5-----3-3-----5-5------3-------|
|-----------------3-3------1-------|
...

3:36
|-------------------------------------------------------------------------------------------|
|-13b15v---15r13p10-13---------------------------------------------------13b15_r_b-r14-b15v-|
|----------------------10v-------------------------------10----10-12/14---------------------|
|--------------------------------------10----10-12p10h12----12------------------------------|
|----------------------------10---12------12------------------------------------------------|
|-------------------------------------------------------------------------------------------|

|---------------------------------------|
|-15r13-10-13p10-12p10-11p10------------|
|----------------------------12-12b14vr-|
|---------------------------------------|
|---------------------------------------|
|---------------------------------------|

|-------------------------|-------------|----|--------------------------0\tr/----20-----20-----|
|----13-15-b18v------18r15p13-14-b15v---|----|-13-14-15-b17--b18vvr---x-0\--/--xb22----b22___r-|
|-14----------------------|-------------|-0/-|------------------------x-0\--/--x---------------|
|-------------------------|-------------|-/0-|-------------------------------------------------|
|-------------------------|-------------|----|-------------------------------------------------|
|-------------------------|-------------| 5X |-------------------------------------------------|

|--20---20---|----|--20\tr\---|
|-b22--b22---|----|-b22\\\\---|
|------------|-0/-|-----------|
|------------|-/0-|-----------|
|------------|----|-----------|
|------------| 7X |-----------|

Tr: PD 97, 97, 01


queen.musichall.cz