F.B.I.

Words & Music by Brian May

Transcribed By Miguel Sobrevia _Chile_



[Light dist.]
|---------------------------------------------------------------------
|-----------------------------------------8/10-8-5--------------------
|--5-7/9~----7-5------5-7/9~----7-5------5---------7~-5-7-7/9-9-7-5---
|7----------7---7~---7---------7---7~---7---------------------------7~
|---------------------------------------------------------------------
|---------------------------------------------------------------------

-----------------------------------------------------|
-----------------------------------------------------|
-5-7-/9-7-5--7/9-9-7-5--7/9-9-7-5--7/9-7-5-----------|
7-----------------------------------------7~---5-7~--|
----------------------------------------------7------|
-----------------------------------------------------|


[Hard dist.]
00:21
|----------------------------------------------------------------------------
|----------------------------------------------5-8b10-8-5--------------------
|---5-7b9r7~--7-5-------5-7b9~-9r7p5-7-5----5-7----------7~--5-7-7b8b9r8r7-5-
|-7----------7---7~---7-------------7---7~-----------------------------------
|----------------------------------------------------------------------------
|----------------------------------------------------------------------------


-------------------------------------------------------------------|
-------5----5----5-----------------5-8-5---------------------------|
-5--7b9--7b9--7b9--7b9r7-5-5-7--7b9------7b8r7-5-------------------|
7-------------------------7---------------------7-5b6-7~-----5--7--|
-------------------------------------------------7-----------5--7--|
-----------------------------------------------------------0-3--5--|


00:40
[part3]
|------------------------------------------------------
|------------------------------------------------------
|------------------------------------------------------
|----6--9--6--------------------7--10--7---------------
|-7-7--7--7-7-----7--10--7---8-8--8---8-8-7--7-5-6-7~--
|--------------8-8--8---8-8----------------------------


--------------------------------------------------------------------
--------------------------------------------------------------------
--------------------------------------------------------------------
--------------------------------------------------------------------
5----7--10--7------0--3--0------6--9--6---7--7-5-6-7~--5----6--9--6-
--8-8--8---8-8--1-1--1--1-1--7-7--7--7-7-----------------7-7--7--7-7

                               [end of part 3]
---------------------------------------------|
---------------------------------------------|
---------------------------------------------|
-------------------7---7\6/7~ (trem down\/)--|
7-7-5-5------------7-------------------------|
--------8h10p8-7-7-5~------------------------|


01:04
|--------------------------------------------------------------------------
|--------------------------------------------------------------------------
|--------------------------------------------------------------------------
|---------------------------------------------/7-5-------------------------
|--3-5/7~---5-3------3-5/7~---5h7p5\3-------3-----7-5--3-5-5/7-7--5h7p5\3--
|-5--------5---5~~--5--------5-------5~----5-----------------------------5~


--------------------------------------------------------------------------|
----------------------------------------------------2---------------------|
----------------------------------------------------2---------------------|
------------------------slight-bend-----------------2---------------------|
--3-5/7--7-5-3-5-3---3--3b-3b-3b-3b--3--------------0---------------------|
-5------------------5-----------------5-3-5~---0-3b-----------------------|

01:22

|12----12---------------12----12--------------
|15b17-17-----13-15~13--15b17-17-----13-15~13-
|-----------14---------------------14---------
|---------------------------------------------
|---------------------------------------------
|---------------------------------------------

-12----12---------------12----12----12-----12----12----12-----12--12-----------------12------------
-15b17-17----13-15~13---15b17-17-16b17--16b17-16b17-15b17--15b17--13b14--------------13b14---------
-----------14--------------------let ring------------------------------14~--12--12-14-----14-13-14~
------------------------------------------------------------------------------14-------------------
---------------------------------------------------------------------------------------------------
---------------------------------------------------------------------------------------------------


-17-16-17----17-19-19b20r19--17~-17---20b22~-20--17---------------
----------/19--------------19----------------------20-17----------
---------------------------------------------------------19--17---
---------------------------------------------------------------19-
------------------------------------------------------------------
------------------------------------------------------------------


--------------------------------------------------------------------------------------|
-------17--------17--------17--------17------17-20-17------17------17------17------17-|
19b..21---19b..21---19b..21---19b..21---19b21---------19b21---19b21---19b21---19b21---|
--------------------------------------------------------------------------------------|
--------------------------------------------------------------------------------------|
--------------------------------------------------------------------------------------|
here, May repeats the bend(taped in studio) -19b21- and sharp the note to -20b22-
and then back to -19b21- and put it as a background for the [part3]

01:49
|------------------------------------------|
|------------------------------------------|
|---------------------------------7-10~----|
|--------7-10~---7-----------7-10----------|
|---7-10----------10-7--8~-8~--------------|
|8-8---------------------------------------|



this is a tricky one, I divided it in 2 parts and I will mark the fingers to use
for taps in the first part using right hand. The fingers are in clockwise:
thumb        =a
the next     =b
middle finger=c
the next     =d
Pinky finger =e

01:53
        b         c       c  b     (with pick)
|-7h11t17p11p7--t19p11p7t17t14p7-|-16p12-(let ring)
|--------------------------------|------12---------
|--------------------------------|--------13-------
|--------------------------------|----------14-----
|--------------------------------|------------14---
|--------------------------------|--------------12\


01:59
[different end for part3]
*-------------------------------------------|
*-------------------------------------------|
*------------7------7-7------7-7------7-7---|
*------------7------7-7------7-7------7-7---|
*-7-5~-------5------5-5------5-5------5-5---|
*-------8-7---------------------------------|

02:08
[multitrack part]
|------------------------------------------------------------------------------------------------
|--------------------------------------------------------------8b10--8-5-------------------------
|---5-7b9~-------7--5-----------5-7b9--------7--5-----------5--------------7--5-7--7b9--9--7-5---
|-7------------7-------7~-----7------------7------7~-------7-----------------------------------7-
|------------------------------------------------------------------------------------------------
|------------------------------------------------------------------------------------------------
|
|------------------------------------------------------------------------------------------------
|------------------------------------------------------------------------------------------------
|---12-12b14~---12b14r12-------12-12b14~----12b14r12--------12-12b14-12-12-11--11-11/12-12-11----
|-14----------14-------12b14--14----------14-------12b14---14----------------14-------------14-14
|------------------------------------------------------------------------------------------------
|------------------------------------------------------------------------------------------------
|
|-------------------------------------------------------
|-------------------------------------------------------
|-6-6---7b9~----6--7--6--5b6---6-6--7b9~---6--7--6--5b6-
|-------------------------------------------------------
|-------------------------------------------------------
|-------------------------------------------------------
|
|-----------------------------------------------------------12-15b17-17-12-----------------------
|----------------------------------------------------------13------------15-13-15-15b17-17-15p13-
|14-14--16b18--14-16-14-13b14--14-14-16b18--14-16-14-13b14-------------------------------------14
|------------------------------------------------------------------------------------------------
|------------------------------------------------------------------------------------------------
|------------------------------------------------------------------------------------------------

02:18
[different guitar sounds]
----------------------------------------|----------------------------------|
[slight dist]---------------------------|-15b17-17-15-13~--15b17-17-15-13~-|
----------------------------------------|----------------------------------|
------10-12/14-14-12-10--12/14-14-12-10-|-[Hard clean dist]----------------|
12-12-----------------------------------|----------------------------------|
----------------------------------------|----------------------------------|

-------------------------------|----------------|--------------|
[warm dist]--------------------|-15--17-15--13--|[slight dist]-|
-------------------------------|----------------|--------------|
12b14-14-12-10--12b14-14-12-10-|-[tone 0 dist]--|--------------|
-------------------------------|----------------|-5-5-7-5--3---|
-------------------------------|----------------|--------------|


[multitrack guitar]
|15b17-17-17r15-13-15b17-17-17r15-13--17b19-19-19r17-15-17b19-19-19r17-15--19b21-21-21-21-21-21-21
|-------------------------------------------------------------------------------------------------
|-------------------------------------------------------------------------------------------------
|-------------------------------------------------------------------------------------------------
|-------------------------------------------------------------------------------------------------
|-------------------------------------------------------------------------------------------------
|
|-------------------------------------------------------------------------------------------------
|-------------------------------------------------------------------------------------------------
|12b14-14-14r12-10-12b14-14-14r12-10--14b16-16-16r14-12-14b16-16-16r14-12--16b18-18-18-18-18-18-18
|-------------------------------------------------------------------------------------------------
|-------------------------------------------------------------------------------------------------
|-------------------------------------------------------------------------------------------------
|
|-------------------------------------------------------------------------------------------------
|16b18-18-18r16-14-16b18-18-18r16-14--18b20-20-20r18-17-18b20-20-20r18-17--20b22-22-22-22-22-22-22
|-------------------------------------------------------------------------------------------------
|-------------------------------------------------------------------------------------------------
|-------------------------------------------------------------------------------------------------
|-------------------------------------------------------------------------------------------------
|
|-------------------------------------------------------------------------------------------------
|13--13-13----------13---13------------13b15-15-15r13----13b15-15-15r13----15b17-17-17-17-17-17-17
|-------------------------------------------------------------------------------------------------
|-------------------------------------------------------------------------------------------------
|-------------------------------------------------------------------------------------------------
|-------------------------------------------------------------------------------------------------


02:35
[pre-end]
|Guit I                                                                      repeat x8
|--------------------------------5------------------5------------------5---|-------------------|
|-------------------------------222----------------222----------------222--|-------------------|
|---2-2--2-2--2-2--2-2--2-2--2-22-22--2-2--2-2--2-22-22--2-2--2-2--2-22-22-|-2-2--2-2--2-2--2-2|
|---2-2--2-2--2-2--2-2--2-2--2-2---2--2-2--2-2--2-2---2--2-2--2-2--2-2---2-|-2-2--2-2--2-2--2-2|
|---0-0--0-0--0-0--0-0--0-0--0-0---0--0-0--0-0--0-0---0--0-0--0-0--0-0---0-|-0-0--0-0--0-0--0-0|
|--------------------------------------------------------------------------|-------------------|
|Guit II
|------------------------------------------------------------------------------------------
|7-5b----------------------------------------------------------------------7-5b------------
|7-5b----------------------------------------------------------------------7-5b------------
|------------------------------------------------------------------------------------------
|------------------------------------------------------------------------------------------
|------------------------------------------------------------------------------------------
|Guit III
|------------------------------------------------------------------------------------------
|------------------------------------------------------------------------------------------
|--------------------------------------------------------------trem down-----2-------------
|----------------------------------------------------------------0\../-------2-------------
|----------------------------------------------------------------0\../-------0-------------
|----------------------------------------------------------------0\../---------------------


|Guit II
---------------------------------------------------------------------------|
5----7-5b-----7-5b-----7-5b-----7-5b---------------------------------------|
5----7-5b-----7-5b-----7-5b-----7-5b----------trill+slow trem down---------|
----------------------------------------------3h5p3--(1h3p1)---------------|
---------------------------------------------------------------------------|
---------------------------------------------------------------------------|
|Guit III
------------------------15---------------15--------------------------------|
-----------------------b17---------------17--------------------------------|
------------------------\/------12-14----\/--------------------------------|
-------7-------7-------trem---14-------------------------------------------|
-------7-------7-----------------------------------------------------------|
----3b-5--0-3b-5-----------------------------------------------------------|


[end]
|--------------------------------------12------12--------------|
|-8b10-8--5----------------------------12---------12--trem down|
|-----------7-5-----------------6------11-------------11-\../--|
|---------------7-7-5-----------7------10----------------------|
|---------------------7-6-5-----7------12----------------------|
|---------------------------8-5-5------------------------------|