Theme from Furia

Written by Brian May

Instruction: You only use the 2 top strings of your guitar, that's why there are only 2 lines present at this tab.
--0--8--7--5--3--5--1--1--10--8--7--5--7--4--5--7--
---------------------------------------------------


--0--8--7--5--3--5--1--10--8--------7--8--5
------------------------------5--3---------


--5--10--10--12--13--12--10--12--5
----------------------------------
As a variation you can play instead of the last note:
                               --10--8--
                               ---------


--5--10--10--12--13--12--10--12-// Variation at end: //-10--8--
--------------------------------// play it or not!!  //--------


--5--10--10--12--13--12--10--8--8--10--12--10--8--6--6--8--10--8--6--5--
------------------------------------------------------------------------


--0--8--7--5--3--5--1--10--8--------7--8--5
------------------------------5--3---------



As a variation on line 5, you can play:
--5--10--10--12--13--12--13--15--17--15--13--12--13--15--13--13--12--10--8--7-//Var://-5--
------------------------------------------------------------------------------//    //----


I hope you like it, and even beginners can play this. I am one too, so this one is not that hard.
Enjoy!!!
Tabbed by Rienk Tholen on 10 September 2002
http://www.queeninheaven.tk
quienk@flappie.nl