Good Company

Words And Music By Brian May


solos and multitrack guitar fills 

multitrack arr. for one gtr
|----------14-------11-14---18__p17-18___\16---18p16---14---|
|-------16-------13---------18__p17-18___\16--(18p16---14)--|
|----16-------14------------18__p17-18___\16---18p16---15---|
|-16------------------------6-------6____\3-------3___//4---|
|-14----------12--------------------------------------------|
|-----------------------------------------------------------|

one guitar     ______
|-----------11-9h11p9---|------------------14------------------|
|-----9-12--------------|-14_h16p14p13--14-----14-16--17/18v---|
|-10--------------------|--------------------------------------|
|-----------------------|--------------------------------------|
|-----------------------|--------------------------------------|
|-----------------------|--------------------------------------|

|---------14h16phphph--|--13/14____----------------------|-14----------------|
|-------14-------------|-----------------------------14--|----14-11----------|
|-----15---------------|-----------11-13-14-14-13-11-----|----------11h13hp..|
|-16-------------------|---------------------------------|-------------------|
|----------------------|---------------------------------|-------------------|
|----------------------|---------------------------------|-------------------|

multitrack backing with wah-wah
|----------------------------------|------------------------------------------|
|--------------------------2---2---|------------------------------------------|
|-4------4---4-------3-----3---3---|--10---9--8-----6--5--4----3----3-3---3---|
|-3------3---3-------4-----4---4---|--11--10--9-----8--7--6----4----4-4---4---|
|-4------4---4-------4-------------|--13--12--11----8--4--4----4----4-4---4---|
|----------------------------------|------------------------------------------|

|----------------------------------------------------14---|
|-------------------------------9----------------14--11---|
|-6-----9----8----11-----------10------------11--11-------|
|-8----11----9----10----12-12--11--------11--11------11---|
|-9----13----9----12----12--9----------------13-----------|
|---------------------------------------------------------|

|----------14-------11-14---18p17-18p16---18p16--------------21--b26v--|
|-------16-------13---------18p17-18p16---18p16-----------23-----------|
|----16-------14------------18p17-18p16---18p16--------23--------------|
|-16----------------------------------------------- e|-------18---21v--|
|-14----------12----------------------------------- B|----19-19---23v--|
|-------------------------------------------------- G|-18-18-----------|
                                                    D|-20--------------|


|--------------------------------------------------------------------|
|-12___h14p12-11___h12p11-9___h11p9-7___h9p7\6-----------------------|
|-13___h15p13-11___h13p11-8_____h10p8___h10p86----8----6-----5---6---|
|-13___h15p13-11___h13p11-9___h11p9-8___h9p8\6----9----8-----7---7---|
|------------------------------------------------11---11----10--11---|
|--------------------------------------------------------------------|

|-------------------------13-13--14-14---|
|-10---11---11-10--11-14--12-13--14-14---|
|-10---11---11-10--11-15--13-14--15-15---|
|-10---11---11-10--11-16-----------------|
|----------------------------------------|
|----------------------------------------|

|--------------------------------------------------|
|-----------------------------7-----7----7----6----|
|-8------8--4/6/8-------8-----4-----4----4----7----|
|-9------9------9---6/8/9-----------4--------------|
|-9------8------7-------6-----5----------5----7----|
|--------------------------------------------------|
...

|--------------------------------------------------|
|-7--9-10--11----14----16----19---------17-18------|
|-6--9-10--11----15----16----19----7-6--15-16------|
|-8--9-10--11----16----16----19----7-6--17-18...---|
|--------------------------------------------------|
|--------------------------------------------------|

|----------|--------------------...------5-6---|
|-...7-----|-4_____\/4__--------...------7-6---|
|-...8-----|-4______________4--------------7---|
|-...8-----|-4__\3__\2---A2-D1----0------7-8---|
|-...6-----|-----------------------------------|
|--(-2__..)|-4______\0___/2/4____/7__/14\7\6---|


2:22
|-------------13h14h15h16-|---------------------------|----------------------|
|-15h16h17h18-------------|-----------11------11-14---|----------------------|
|-------------------------|-11-------------11---------|----------------------|
|-------------------------|------11-------------------|-7_/8--10_/11---------|
|-------------------------|---------------------------|---------------8_/9---|
|-------------------------|---------------------------|----------------------|

2:38
|--------------------------------------------------------------------|
|----------------14---17---18-18-17---16---15__\14-14-13---12--------|
|-15h16p15p14-15------------------------------------------------14---|
|--------------------------------------------------------------------|
|--------------------------------------------------------------------|
|--------------------------------------------------------------------|
|                  |
|                  |-------------------------------------------------|
|                  |--13---14-14-13---12---12---11-11-10---9---------|
|                  |--------------------------------------------10---|
|                  |-------------------------------------------------|
|                  |-------------------------------------------------|
|                  |-------------------------------------------------|
|                  |
|                  |-----------------------------------------------|
|                  |-----------------------------------------------|
|                  |-----------------------------------------------|
|                  |-----------------------------------------------|
|                  |--10---11-11-10---11----9-9-8-8----------------|
|                  |--------------------------------9----9----8----|


|-----14-11------------14-11v-------------------------------------------------|
|-11---------------11------------11-12-12-11---12-----------------------------|
|--------------14-----------------------------------12---13-p13-12---13---14--|
|-----------------------------------------------------------------------------|
|-----------------------------------------------------------------------------|
|-----------------------------------------------------------------------------|
|
|-----------------------------------------------------------------------------|
|-----14-11------------14-11v-------------------------------------------------|
|-11-----------10--11------------12-13-13-12---13-----------------------------|
|---------------------------------------------------14---15-15-14---15---15---|
|-----------------------------------------------------------------------------|
|-----------------------------------------------------------------------------|
|
|-----------------------------------------------------------------------------|
|-----------------------------------------------------------------------------|
|-----------------------------------------------------------------------------|
|-----------------------------------------------------------------------------|
|--------9------------9--9----------------------------------------------------|
|_/9------------8--9-------------12-13-13-12---13----8----9--9--8----9----8---|

|------------------------------------------|
|-11-11-10-11-12-12-11-12-13-13-12-13-14---|
|------------------------------------------|
|------------------------------------------|
|------------------------------------------|
|------------------------------------------|
|
|------------------------------------------|
|------------------------------------------|
|-11-11-10-11-13-13-11-13-14-14-13-14-15---|
|------------------------------------------|
|------------------------------------------|
|------------------------------------------|
|
|------------------------------------------|
|------------------------------------------|
|------------------------------------------|
|------------------------------------------|
|-------9----------------------------------|
|--9---------11-11-11-11-13-13-13-13-14----|

|-14-14-13-14------14-14-13-14----------------------------------------14---|
|------------------------------------------11---11p10p9------------14------|
|-------------11---------------11-----10----------------11------15---------|
|------------------------------------------------------------16------------|
|--------------------------------------------------------------------------|
|--------------------------------------------------------------------------|
|multitrack
|-----------------------------------------------------------|
|------------------------------3----------------------------|
|--------------9__\8-----------5------6----10---10-9-8--6---|
|-------------11__\9-----------7------9----11---11-9-9--8---|
|-----------------------------------------------------------|
|-----------------------------------------------------------|

|-------------------------18p16p14-16p14-18p14------------14------------14--|
|-14h16phphp...--14h16h18------------------------------14------------14-----|
|---------------------------------------------------15------------15--------|
|------------------------------------------------16------------16-----------|
|---------------------------------------------------------------------------|
|---------------------------------------------------------------------------|

|----------------------------------------------------------------------------|
|-11h12h13h14----14h16h17-18p17p16p14----14h16p14------16-14-----------------|
|-------------------------------------------------17-----------15------------|
|-----------------------------------------------------------------16--13hp---|
|-------------------------------------------------------------------------16-|
|----------------------------------------------------------------------------|

|---------------------------------------------------------------------------------|
|-11h12h13h14----12h14h15h16----12h13h14h15---------------------------14--12-11---|
|---------------------------------------------13h15p13-12---15-13-----------------|
|---------------------------------------------------------------------------------|
|---------------------------------------------------------------------------------|
|---------------------------------------------------------------------------------|

2:54
|-----------------------------------------------------------------------------|
|----------------------------------------11-----------------------------------|
|-13---12---13--\10---13---12---13------------11---11------11-------------11--|
|----------------------------------11--------------11---11----11-11-10-11-----|
|-----------------------------------------------------------------------------|
|-----------------------------------------------------------------------------|

|-----------------------------------------------------------------------------------|
|------------------------------------------11--10------------------11--11-10---11---|
|-13-13-12---13__\6---10-10-9---10----------------13--12-11---10--------------------|
|------------------------------------11---------------------------------------------|
|-----------------------------------------------------------------------------------|
|-----------------------------------------------------------------------------------|


|-----------------------------------------------------------------------------|
|-------------------------______----------------------------------------------|
|-11-11------11-11------11h13p11------11------10-10p9---8---7---6---4--5-6----|
|-------13---------13------------13-------------------------------------------|
|-----------------------------------------------------------------------------|
|-----------------------------------------------------------------------------|


2:56 "trombone" guitar
|------------------------------------------------------------------------------|
|------------------------------------------------------------------------------|
|------------------------------------------------------------------------------|
|------------8_/9--5/_6--7_/8-------678-----------9_\8--6_\4---4-4-3-----------|
|--------------------------------9--------7_/8-------------------------6---4---|
|-6___/9-----------------------------------------------------------------------|

|-----------------------------------------------------------------|
|-----------------------------------------------------------------|
|-----------------------------------------------------------------|
|---------2-2-2-2-1-------------------------678-------------------|
|-----------------------5__\4--5--6--8--9-------------------------|
|-2-2-2-2---------------------------------------------------------|
...

3:15
|----------14-------11-14-|-18p17-18---16-18p16--14-------------------------------|
|-------16-------13-------|----------------------------11-12-13-14---14-13-12-11--|
|----16-------14----------|-----------(13)-------------11-13-14-15---15-14-13-11--|
|-16----------------------|-11-11-10-8-9---7___/8---------------------------------|
|-------------------------|--------------------------------------9----------------|
|-------------------------|---------------------------8/9-----------8/9-------2---|

Tr: PD, 22 feb '97; 5 aug '98, aug '01 


queen.musichall.cz