Hitman

Words and Music by Queen

Author/Artist: Queen
Title: Hitman
Album: Innuendo
Transcribed by: Piotr N.
Email: piotr-n@gmx.de


Just some riffs, but I think it's better than nothing.
So here we go. 


Riff at the beginning, repeat 10 times

------------------------------------------------------------------------------
------------------------------------------------------------------------------
------------------------------------------------------------------------------
---5-5------------------------------------------------------------------------
-0-3-3------------------------------------------------------------------------
------------------------------------------------------------------------------
  

Then comes this cool guitar part                                            

------------------------------------------------------------------------------
------------------------------------------------------------------------------
------------------------------------------------------------------------------
------------------------------------------------------------------------------
-------0-------2-------4-2-4-2-0-2-0------------------------------------------
-2-0-2---2-0-2---2-0-2---------------2-0--------------------------------------
                                                                              

------------------------------------------------------------------------------
------------------------------------------------------------------------------
------------------------------------------------------------------------------
------------------------------------------------------------------------------
-------0---------0-------2---------2------------------------------------------
-2-0-2---2-2-0-2---4-2-4---4-4-2-4--------------------------------------------
                                                                              

------------------------------------------------------------------------------
------------------------------------------------------------------------------
------------------------------------------------------------------------------
---------2---------4-------6---4-2---4-2--------------------------------------
---4-2-4---4-4-2-4---4-2-4---4-----4------------------------------------------
------------------------------------------------------------------------------
                                                                              

Thanks to Andrew D. from Poland!

#----------------------------------PLEASE NOTE--------------------------------#
#This file is the author's own work and represents their interpretation of the#
#song. You may only use this file for private study, scholarship, or research.#
#-----------------------------------------------------------------------------#
#-- File created with Instab - http://www.pconline.com/~smcarey/instab.html --#
#-----------------------------------------------------------------------------#