Intro/Tie Your Mother Down

Music by Brian May


Author/Artist: Queen
Title: Intro/Tie your mother down
Album: A Day at the Races
Transcribed by: Piotr N.
Email: piotr-n@gmx.de

Here is the famous intro from ADATR album.
Of course, it's not perfect, but I'm just a beginner...

------------|----------------|------------------------------------------------
------------|----------------|------------------------------------------------
-7-7-7-7-5-7|-7-5-7-7-7-7-5-7|------------------------------------------------
-7-7-7-7-5-7|-7-5-7-7-7-7-5-7|------------------------------------------------
-5-5-5-5-3-5|-5-3-5-5-5-5-3-5|------------------------------------------------
------------|----------------|------------------------------------------------
                                                                              

-------------|--------------------|-------------------------------------------
-------------|--------------------|-------------------------------------------
-5-5-5-5-3-5-|--5-3-5-5-5-5-3-----|-------------------------------------------
-5-5-5-5-3-5-|--5-3-5-5-5-5-3-5---|-------------------------------------------
-3-3-3-3-1-3-|--3-1-3-3-3-3-1-5---|-------------------------------------------
-------------|----------------3---|-------------------------------------------
                                                                              

--------------------------|---------------------------------------------------
--------------------------|---------------------------------------------------
-10-7----5-7-10-7---------|---------------------------------------------------
-10-7----5-7-10-7---5-----|---------------------------------------------------
--8-5----3-5--8-5---5-----|---------------------------------------------------
--------------------3-----|---------------------------------------------------
                                                                              

Thanks to Andrew D. from Poland!

#----------------------------------PLEASE NOTE--------------------------------#
#This file is the author's own work and represents their interpretation of the#
#song. You may only use this file for private study, scholarship, or research.#
#-----------------------------------------------------------------------------#
#-- File created with Instab - http://www.pconline.com/~smcarey/instab.html --#
#-----------------------------------------------------------------------------#