Just one Life

Words and music by Brian May

Transcribed by Miguel Sobrevia (Chile)
Standard Tuning

[Verse 1]
                                (x2)
------------------------------------
-----3---3---3---------3---3---3----
----2--2---2---2------0--0---0---0--
---0----0---0---0----0----0---0---0-
------------------------------------
-2-----------------3----------------

I did not know you...
-----------------------------------------------------------------------------------------
-----3---3---3---------3---3------3------3---3---3---------3---3---3--------3---3---3----
----2--2---2---2------2--2---2--0-------2--2---2---2------0--0---0---0-----2--2---2---2--
---0----0---0---0----0----0---0--------0----0---0---0----0----0---0---0---0----0---0---0-
-----------------------------------------------------------------------------------------
-2-----------------3-----------------2------------------3----------------2---------------

And as I looked Around...
---------------------------------------(0)--------------------------
-----3---3---3--------3---3---3---------3---3---3--------3--3---3---
----0--0---0---------0--0---0---0------2--2---2---2-----2--2---2--2-
---2----2---2-------0----0---0---0----0----0---0---0---0------------
--------------------------------------------------------------------
-0----------------3-----------------2-----------------2-------------

[Verse 2]

Your talent came flowing...
-------0-------------0------------0-----------0---------------------------------------------0----
-----3--3----------3--3---------3--3--------3--3--------3-3-3------3-3-3-------3-3-3------3---3--
----2-2--2--------0-0--0-------2-2--2------0-0--0------2-2-2-2----0-0-0-0-----0-0-0-0----0-0-0-0-
---0------0------0------0-----0------0----0------0----0----------2-----------0----------0--------
-------------------------------------------------------------------------------------------------
-2-------------3------------2-----------3-----------2-----------0----------3-----------3---------


[Chorus]

F#m/5+
Just one life,=20
C        G
Just one life,
D/F#          G6(no3no5) D G
Just One life,
G                        D/A
That is borned, and is, and is gone
            G
Just one life
         C                 G
And I'm so glad to know you
                =20
As I know you now               (x2)
------------------------------------
-----3---3---3---------3---3---3----
----2--2---2---2------0--0---0---0--
---0----0---0---0----0----0---0---0-
------------------------------------
-2-----------------3----------------

[Verse 3]

Perhaps inside you...          (x2)
-----------------------------------
-----3---3---3---------3---3-----3-
----2--2---2---2------2--2---2--0--
---0----0---0---0----0----0---0----
-----------------------------------
-2-----------------3---------------

And what you left behind you...
------------------------------------------------------0--0-------------------------------------
-----3---3---3---------3---3---3-----3---3---3------3--3--------3---3---3---------3---3---3----
----2--2---2---2------0--0---0------0--0---0--0----0-0--0------2--2---2---2------2--2---2---2--
---0----0---0---0----2----2---2----0----0---0-----0-----------0----0---0---0----0----0---0---0-
-----------------------------------------------------------------------------------------------
-2-----------------0--------------3--------------3----------2-----------------2----------------

[Chorus]
Repeat Chords

[End]

What life is all about
I did not know you...            (x2)
------------------------------------
-----3---3---3---------3---3---3----
----2--2---2---2------0--0---0---0--
---0----0---0---0----0----0---0---0-
------------------------------------
-2-----------------3----------------

'Til the day we gathered, To say our farewell
---------------------------0------------
-----3---3---3---------3----3--------3--
----2--2---2---2------0--0---0------2---
---0----0---0---0----0--------0----4----
----------------------------------5-----
-2-----------------3-------------2------



[Chords Used]
             EADGBe
F#m/5+     =3D 254232
D/F#       =3D 2x0232
G6(no3no5) =3D xxx030
D/A        =3D xx0235