Just One Life (guitar version)
Written by Brian May
Tabbed by Miguel Sobrevia

[Intro] [Verse 1]
||-----|-----------------------------------------------|--------------------------------
||-----|-----------------------------------------------|--------------------------------
||-----|---------/7------4-5-4-------------------------|--------7-9-9/11---7-7-9-9/11-9~
||-----|--77-7-7------77---------7-7-7--\5-4---7-5-4-5-|--7-7-7-------------------------
||/5~--|-----------------------------------------------|--------------------------------
||-----|-----------------------------------------------|--------------------------------

--------------------------------------|
--------------------------------------|
9-11-12-12~-11tr12\9-9tr11\7---7-9-7~-|
------------------------------9-------|
--------------------------------------|
--------------------------------------|

[Verse 2]
|----------------------------------------------------------------------------
|----------------------------------------------------------------------------
|--------------19~------16-17-16~-----------------19b21r19~----16-1719-16~---
|19-19-19-19~---------19------------19-19-19-19~-------------19--------------
|----------------------------------------------------------------------------
|----------------------------------------------------------------------------

--------------------------------------------------------------------------------------
-----------------------------------------(faster)---------17-19-20--17b19r17-15h17p15-
---------19-21-21b23~---pb23r21p19-21---pb23r21p19-21---16----------------------------
19-19-19------------------------------------------------------------------------------
--------------------------------------------------------------------------------------
--------------------------------------------------------------------------------------
                      [Chorus]
--------------------|-------------------------------------------
---15-17--15h17p15--|-15-17b19-19~---17-15-14b15---15-17b19-19~-
-16-----------------|-------------------------------------------
--------------------|-------------------------------------------
--------------------|-------------------------------------------
--------------------|-------------------------------------------

                    |------------------------------------------
                    |-12-14b15-15----15-12-11b12---12-14b15-15-
                    |------------------------------------------
                    |------------------------------------------
                    |------------------------------------------
                    |------------------------------------------

-------------------------------------|----------------|-----------------------------------
-pb19r17-15-----15---17-pb19r17------|----------------|-----------------------------------
--------------16-----------------14\-|-14-14b16-16~---|-16-17p16-17p16-17~--17-16\14\12---
-------------------------------------|----------------|-----------------------------------
-------------------------------------|----------------|-----------------------------------
-------------------------------------|----------------|-----------------------------------

                                     |-----------------
                                     |-----------------
                                     |-12-11b12-12~----
                                     |-----------------
                                     |-----------------
                                     |-----------------

                                     |-----------------
                                     |-15-14b15-15~----
                                     |-----------------
                                     |-----------------
                                     |-----------------
                                     |-----------------


--------------------------|
--------------------------|
------12-14-pb16r14-14~\--|
12-12---------------------|
--------------------------|
--------------------------|

[Verse 3]
|-----------------------------------------------------------------------------------------
|-----------------------------------------------------------------------------------------
|---------------19~---------16-pb(16)17r16~-------------------19~---------16-17--19p17p16-
|19-19--19--19~-------19-19--------------------19-19--19--19~-------19-19-----------------
|-----------------------------------------------------------------------------------------
|-----------------------------------------------------------------------------------------

----------------------------------------------------------------------
---22b24--22-20-19-20-22-------19---pb(17)19r17p15-17-pb(17)r19~------
19-----------------------19-21----------------------------------------
----------------------------------------------------------------------
----------------------------------------------------------------------
----------------------------------------------------------------------

22b24--r22--22-21-19\17-19-17\15-14-15\14\12--12--------------------------------------------
--------------------------------------------15--15-12-15121512---12--------15--17-17\15-15~-
--------------------------------------------------------------14---14-12~-------------------
--------------------------------------------------------------------------------------------
--------------------------------------------------------------------------------------------
--------------------------------------------------------------------------------------------


Just One Life
Just One Life
Just One life
That is borned, and is and is gone
Just One Life
Did you ever have the chance to find out
What's life is all about


---------------------------------------------------------------------||
----------------------------------------------------8--8-7-5-3h5p3~--||
-------7~------4-5-4~--------------------------/4-7------------------||
77-7-7-----7-7----------77-7-7--5h7p5\4--/5--------------------------||
---------------------------------------------------------------------||
---------------------------------------------------------------------||

Sat 7 october 2000