Last Horizon

Music by Brian May

Transcribed by Dimitrios Stefanis (dimitrios_stefanis@s9gate.sta.scitex.com)
* Carry 
^ Bend 

--------------------------------------------------------------------------------------
--12--14--12*------10--9*-----9^--9^--------------------------------------------------
--------------------------------------11--9--11--9--9---------9--11--9--9-------------
-----------------9----------------------------------------13--------------------------
--------------------------------------------------------------------------------------
--------------------------------------------------------------------------------------


------------------------------------------------------------12--9---------------------
------------------------12--14--12*---10^--9*----------------------12-----------------
----9--13--11*--9--11*---------------------------12>11>9---------------12--11--9--9---
-13-----------------------------------------------------------------------------------
--------------------------------------------------------------------------------------
--------------------------------------------------------------------------------------


--------------------------------------------------------9*--9>9*--9>11>12--11--12*----
--------------------------------------------------------------------------------------
--11------13>11>9*-----9>13--13*---11--9--11--11--9-----------------------------------
------11------------------------------------------------------------------------------
--------------------------------------------------------------------------------------
--------------------------------------------------------------------------------------


9-------------------------------------------------------------------------------------
--12--------------------------------------------------------14--12*--10^--9*----------
------12--11--9--9*--11------9>13*--11--9--11--13--14---15--------------------12>13---
-------------------------11-----------------------------------------------------------
--------------------------------------------------------------------------------------
--------------------------------------------------------------------------------------


--------------------------------------------------------------------------------------
--------------------------------------------------------------------------------------
11--9--11--9*------9--13--11*--9--11-------9--9*--------16--18^--16*------------------
----------------13---------------------9---9--9*-----14---------------14--18--19^--18*
-------------------------------------------7--7---------------------------------------
--------------------------------------------------------------------------------------


--------------------------------------------------------------------------------------
--------------------------------------------------------------------------------------
--------------------------------------------------------------------16--18^--16*------
--16--16--14--14*------16--14--14*---16--18--16--16*--14--14-----14-------------------
--------------------18----------------------------------------------------------------
--------------------------------------------------------------------------------------


--------------------------------------------------------------------------------------
--------------------------------------------------------------------------------------
--------------------------------------------------------------------------------------
-14--18--19^--18*----16--16--14--14*------16--14--14*---14--18--16--16*--14--16*------
---------------------------------------18---------------------------------------------
--------------------------------------------------------------------------------------


--------------------------------------------------------------------------------------
--------------------------------------------------------------------------------------
----------18--18>18*---18--16----18*---18--20--21*---18--18--18*-----18--20--21-------
--14--14----------------------19------------------------------------------------------
--------------------------------------------------------------------------------------
--------------------------------------------------------------------------------------


-----------------19--21^--19*---------------------------------------------------------
----------------------------------22--21*---21--21*--19--19--17-17*------19--17--17*--
-24^--23*-----16---------------16-------------------------------------20--------------
--------------------------------------------------------------------------------------
--------------------------------------------------------------------------------------
--------------------------------------------------------------------------------------


--------------------------------------21^--21^--21^--19*------------------------------
--17--21^--21^>21^--19--17--19*---------------------------21--22--24--22--21--19--21*-
-----------------------------------16-------------------------------------------------
--------------------------------------------------------------------------------------
--------------------------------------------------------------------------------------
--------------------------------------------------------------------------------------


-------------------------------------------------------------------------------------
---21--21--19--19--17--17*------19--17--17*--17-21--19--17*------21--19--17*---------
-----------------------------20------------------------------18----------------------
-------------------------------------------------------------------------------------
-------------------------------------------------------------------------------------
-------------------------------------------------------------------------------------

Two guitars
-------------------------------------------------------------------------------------
--16^*-------------16^*---17^*--16--17--19--21*---16^*-----16--17--21^--19*--17^-----
-----------16--18--------------------------------------18------------------------18*-
--------16---------------------------------------------------------------------------
-------------------------------------------------------------------------------------
-------------------------------------------------------------------------------------

Two guitars
-------------------------------------------------------------------------------------
--19^---19--21--22^------------------------------------------------------------------
-------------------------------------------------------------------------------------
-------------------------------------------------------------------------------------
-------------------------------------------------------------------------------------
-------------------------------------------------------------------------------------


-------------------------------------------------------------------------------------
--15>17^--15*------------------------------------------------------------------------
-----------------16^*--14>12>16*--16>14>12---16--14--12--14------12*---11>16>17--12*-
--------------------------------------------------------------14---------------------
-------------------------------------------------------------------------------------
-------------------------------------------------------------------------------------


------------------------------------------------------------------------------------
----------------------------17^>17^*--15*-----17--15--13--15--13--------------------
----11--12--16--14--12*-------------------------------------------16--14--12*-------
------------------------------------------------------------------------------------
------------------------------------------------------------------------------------
------------------------------------------------------------------------------------


-------------------------------------------------------------------------------------
--------------------------------15--17^*---15--13------------------------------------
---------11--16--14--12*-----16--------------------16--14--16--14--12-----12--14-----
-12--13---------------------------------------------------------------14*---------12*
-------------------------------------------------------------------------------------
-------------------------------------------------------------------------------------


------------------------------------------15--14--13---------------------------------
14--12---------------9--12--12>14--12*---------------15--13--12---------12^----------
--------11*---10>11----------------------------------------------14--12-----14--12*--
-------------------------------------------------------------------------------------
-------------------------------------------------------------------------------------
-------------------------------------------------------------------------------------


--15--17^*--17--19^*---------------12---------12---------12--------12*--15--15--15*--
---------------------13*----13--15-----13--15-----13--15----13--15-------------------
-------------------------------------------------------------------------------------
-------------------------------------------------------------------------------------
-------------------------------------------------------------------------------------
-------------------------------------------------------------------------------------


-----22--24--22------24--22*---------------------------------------------------------
--15--------------15-----------------------------------------------------------------
-------------------------------------------------------------------------------------
-------------------------------------------------------------------------------------
-------------------------------------------------------------------------------------
-------------------------------------------------------------------------------------