THE MEETING - FURIA

Tabbed on 02/2002 by Dario Polverini (yngwiebrian@libero.it)

This is a very dramatic guitar solo, so keep the right tune and let your guitar be a violin!!
Here Brian uses a clean guitar with a lot of reverb.
The key is A minor, but in the middle of the solo (00.49) Brian modulates in D minor, then he
returns in A minor (01.16).


E||-------7b-----7--5----|-----------------------|--9b-----8--7----------|
B||--5-------------------|--8~---10--6~-----6~---|-----------------10~---|
G||----------------------|-----------------------|-----------------------|
D||----------------------|-----------------------|-----------------------|
A||----------------------|-----------------------|-----------------------|
E||----------------------|-----------------------|-----------------------|


                                            [Keys enter]     Am
---------------------------|-------------------------------|-------7b-----7--5----|
--12p-9~-----10/---12--12~-|-------------------------------|--5-------------------|
---------------------------|-10~---9-10-9------------------|----------------------|
---------------------------|-------------------------------|----------------------|
---------------------------|-------------------------------|----------------------|
---------------------------|-------------------------------|----------------------|


           Dm                                             E
-------------------------|--12b-----12--10----8~---|--10p-7~-----8/---10--10~-|
--8~---10----------------|-------------------------|--------------------------|
-----------10~-----10~---|-------------------------|--------------------------|
-------------------------|-------------------------|--------------------------|
-------------------------|-------------------------|--------------------------|
-------------------------|-------------------------|--------------------------|


                       Am                         Dm               Am
--------12~---------|--7b-----7p-5---------|-------------|--9b-----8~----------|
--------------------|-----------------8h---|--10--6~-----|----------------5~---|
--------------------|----------------------|-------------|---------------------|
--------------------|----------------------|-------------|---------------------|
--------------------|----------------------|-------------|---------------------|
--------------------|----------------------|-------------|---------------------|


    E                   Am                         Dm
-----------7/---8----|--5-----------------|--------10~---10--12--13~---|
---------------------|--------------------|--10------------------------|
----7~---------------|--------------------|----------------------------|
---------------------|--------------------|----------------------------|
---------------------|--------------------|----------------------------|
---------------------|--------------------|----------------------------|


          Am                   Dm                          E4
--12--10--12----------------|--10--10~---10--12--13p---10--12--|
--------------10~-----10----|----------------------------------|
----------------------------|----------------------------------|
----------------------------|----------------------------------|
----------------------------|----------------------------------|
----------------------------|----------------------------------|


      E [almost inaudible]         Dm
------12-13-12-10-12~-----|--------10--10~---10--12--13~---|
--------------------------|--10----------------------------|
--------------------------|--------------------------------|
--------------------------|--------------------------------|
--------------------------|--------------------------------|
--------------------------|--------------------------------|


          C                               Bb                         E4
--12--10--8h10p8---8--10--12~---|--10--8--6~---8/-10--10~---|--8--6--5~--------|
--------------------------------|---------------------------|---------------5~-|
--------------------------------|---------------------------|------------------|
--------------------------------|---------------------------|------------------|
--------------------------------|---------------------------|------------------|
--------------------------------|---------------------------|------------------|


      Am                         Dm                    Am
------7b-----7--5----|-----------------------|--9b-----8~----------|
---------------------|--8/---10--6~-----6~---|----------------5~---|
---------------------|-----------------------|---------------------|
---------------------|-----------------------|---------------------|
---------------------|-----------------------|---------------------|
---------------------|-----------------------|---------------------|


    E                   Am
-----------7/---8----|--5~----------------||
---------------------|--------------------||
----7~---------------|--------------------||
---------------------|--------------------||
---------------------|--------------------||
---------------------|--------------------||




****************************************************************

For comments, suggestions, congratulations or insults,
or anything else, please mail to   yngwiebrian@libero.it