No-One But You (Only the Good Die Young)
Written by Brian May
Produced by Queen
Tabbed by Miguel Sobrevia

The strings on this song are tuned a little up, check out the song to get the sound


A hand above the water
an angle reaching for the sky
is it raining in heaven
do you want us to cry

and every where the broken hearted
on every lonely avenue
No-one could reach them...

 [00:43]                    [w/dist.] [Chorus]
e|-----------------1------------------|---------3-------------------3------------------
B|---3------1-----1-----5-------------|-7-------3-----------7-------3-----------7------
G|--3------2-----2-----5-------2-2-22-|-7---2---0---2-2-2---7---2---0---2-2-2---7------
D|-3------3-----3-----5-----5--2-2-22-|-7-------0---2-2-2---7-------0---2-2-2---7------
A|1------3-----3-----3------2--0-0-00-|-5\------2---0-0-0---5\------2---0-0-0---5\-----
E|------1-----------------------------|-----2---3---------------2---3------------------

                              Another tricky situation...
[01:09]                       [w/tremolo]
--------------------5-------5-|-------------
----3---------------5---2---2-|--5----------
2---4----------2----2---2---2-|--5----------
----4----------2--------2-----|--5----------
----2---0------0--------------|--3----------
2----------4------------------|-------------


Licks
[01:27]          [01:32]                             [01:40]
|----------------|-----------------------------------|-----------------|
|----------------|-----------------------------------|-----------------|
|pb(7)9r7-5-6-7~-|pb(9)10r9b10r9b10r9p7--5-7p5\4~----|-----------------|
|----------------|--------------------------------5~-|-5-4~--4h5h7-5~--|
|----------------|-----------------------------------|-----------------|
|----------------|-----------------------------------|-----------------|

[01:45]                  [01:51]            [01:56]
|------------------------|------------------|--------------------------|
|------------------------|-----8------------|----------6-5-------------|
|----5--7--pb(7)9r5---5~-|--7b9-9r7-5-6-7~--|--------7-----7--5h7p5-3~-|
|5--7---------------7----|------------------|----5-7-------------------|
|------------------------|------------------|7-8-----------------------|
|------------------------|------------------|--------------------------|

Hell you made a sensation...                                  [02:35]
---------------------------------------------||--------------|diferent------------
3-------------5------------------------------||--------------|end--------2h3p2--*-
3-----2---2---5---------------4-----2--2--22-||repeat chorus-|of---------2------*-
3-----3---3---5---------------5-----2--2--22-||--------------|the--------2--------
1-----0---3---3---3---5---7---2-----0--0--00-||--------------|chorus--------------
----------1----------------------------------||--------------|--------------------
*2 guitars playing each string and an A chord behind

And now the party must be over
I guess we'll never understand
the sence of your leaving
was it the way it was planned

So we grace another table
and raise our glasses one more time...

[03:12]
...--------------------------------------------------------------||--------------|
...-------------3----------------5-------------------------------||--------------|
...-------------3-------2---2----5-----------------4-----2--2--22||repeat chorus-|
...---3-2-0-----3-------3---3----5-----------------5-----2--2--22||--------------|
...0---------3--1-------0---3--3-3-----3---5---7---2-----0--0--00||--------------|
...-------------------------1-3----------------------------------||--------------|

[outro]
[03:41]           [03:47]
Bm
Criyin for...
|----------------|-----------|
|----------------|-----------|
|4--2-1~---2~----|-1~-0~-----|
|----------------|-------4~--|
|----------------|-----------|
|----------------|-----------|
|                            |
|----------------------------|
|---------------------3------|
|----------------2/4-----2---|
|----------------------------|
|----------------------------|
|----------------------------|


[final lick]
[03:52]
------------10--------------------
---------10----12~--pb(10)12r10~--
------11--------------------------
---12-----------------------------
12--------------------------------
----------------------------------

[With Light dist]
[03:59]                    D
------------------------------0h2-----||
---7-\5----8-------8---------3--------||
----7\5-----7-5\4---7-4-----2---------||
---------------------------0----------||
--------------------------------------||
--------------------------------------||


The song is played with a very slow volume clean guitar all over it,
you can listen it with karaoke!

Sat 7 october 2000