Resurrection

Words: May. Music: May, Powell, Page.


Author/Artist: Brian May
Title: Resurrection
Album: Back to the light
Transcribed by: Piotr N.
Email: piotr-n@gmx.de

Here is this cool guitar "solo" repeated throughout the song.
It's not perfect, but it's still better than nothing.

0'55 - 1'08

-------------------------------------10-12-14-14-12-10-14-12-14-12-10---------
-12-10----10-10----10-12-14-12-10-12------------------------------------------
-------11-------11------------------------------------------------------------
------------------------------------------------------------------------------
------------------------------------------------------------------------------
------------------------------------------------------------------------------
                                                                              

-------------------------------------------10-12-14-14-12-10-14-12------------
-12-10----10-10----10-12-14-15-14-12-10-12------------------------------------
-------11-------11------------------------------------------------------------
------------------------------------------------------------------------------
------------------------------------------------------------------------------
------------------------------------------------------------------------------
                                                                              

Thanks to Andrew D. from Poland!

#----------------------------------PLEASE NOTE--------------------------------#
#This file is the author's own work and represents their interpretation of the#
#song. You may only use this file for private study, scholarship, or research.#
#-----------------------------------------------------------------------------#
#-- File created with Instab - http://www.pconline.com/~smcarey/instab.html --#
#-----------------------------------------------------------------------------#