Slow Down

Words and Music by Larry Williams


Author/Artist: Brian May
Title: Slow down
Album: Another world
Transcribed by: Piotr N.
Email: piotr-n@gmx.de

Here is the main riff of Slow down. 
Actually it's my first tab, so it isn't perfect. 



----------------|-------------------------------------------------------------
----------------|-------------------------------------------------------------
----------------|-------------------------------------------------------------
-2-2------------|2-2----------------------------------------------------------
-2-2---2-4-2-4-2|2-2---2-4-2-4-2----------------------------------------------
-0-0-4----------|0-0-4--------------------------------------------------------


Then it changes to:                                                                              

--------------------------------|---------------------------------------------
--------------------------------|---------------------------------------------
--------------------------------|---------------------------------------------
-9-9-----6---6---7-7-----4---4--|-2-2-------------2-2-------------------------
-9-9-6-9---9---9-7-7-4-7---7---7|-2-2---2-4-2-4-2-2-2-------------------------
-7-7-------------5-5------------|-0-0-4-----------0-0-------------------------
                                                                              

Thanks to Andrew D. from Poland!

#----------------------------------PLEASE NOTE--------------------------------#
#This file is the author's own work and represents their interpretation of the#
#song. You may only use this file for private study, scholarship, or research.#
#-----------------------------------------------------------------------------#
#-- File created with Instab - http://www.pconline.com/~smcarey/instab.html --#
#-----------------------------------------------------------------------------#